Аквариум - Золотой городна гитаре


Аквариум - Золотой город(на гитаре)

Продолжительность: 01:47

Дата релиза: 2016-12-23

Прослушено: 657

Голосов: 0    

Скачать Другие песни исполнителя
Текст песни:

Самые лёгкие табы

--------------------0------------0-
--1-0-------01--------3-1-0-1-1-3--
------2-1-2----2-------------------
2-----------------2----------------
--0-------0---------0-------0------
-----------------------------------

----1-0------------1-0---------
--------3-1-0-1-3------3-1-3-0-
--2----------------------------
----0--------------------------
-------------------------------
---------------------0-------0-

---------------------0------------0-
---1-0-------01--------3-1-0-1-1-3--
-------2-1-2----2-------------------
-2-----------------2----------------
---0-------0---------0-------0------
------------------------------------

---1-0------------1-0---------
-------3-1-0-1-3------3-0-1---
-2--------------------------2-
---0--------------------------
----------------------------0-
--------------------0---------
End of Fill 1

Fill 2
-3-3-----3-3-1-0-1-5--1-1----1-1-0---0-3-
-------2-----------6-------0-------4---5-
-----2-------------7-----0-------------5-
-----------0-----------------------------
---0---------------------------3---------
------------------------0----------------
-0-------5-10-8-7-5-5-4-
-----5-6--------------3-
---7------------------4-
---0--------------------
--------------------7---
------------------------

---------5-10-8-7-5-5-4--5
-----5-6--------------3--5
---7------------------4--5
---0----------------------
--------------------7-----
--------------------------

Видео Видеоклип Аквариум - Золотой город(на гитаре)
Поделиться: 
Комментарии (0)




Добавить комментарий



Каптча:
/.jpg